  0
SECTION
  2
HEADER
  9
$ANGBASE
  50
0.0
  9
$ANGDIR
  70
1
  9
$MEASUREMENT
  70
0
  0
ENDSEC
  0
SECTION
  2
TABLES
  0
TABLE
  2
LTYPE
  70
4
  0
LTYPE
  5
40F
  2
CONTINUOUS
  70
0
  3
Solid line
  72
65
  73
0
  40
0.0
  0
LTYPE
  5
410
  2
DASHDOT
 70
0
  3
Dash Dot ____ _ ____ _
 72
65
 73
4
 40
2.0
 49
1.25
 49
-0.25
 49
0.25
 49
-0.25
  0
LTYPE
  5
411
  2
DASHED
 70
0
  3
Dashed __ __ __ __ __
 72
65
 73
2
 40
0.75
 49
0.5
 49
-0.25
  0
LTYPE
  5
43B
  2
DOTTED
 70
0
  3
Dotted .  .  .  .
 72
65
 73
2
 40
0.2
 49
0.0
 49
-0.2
  0
ENDTAB
  0
TABLE
  2
STYLE
  70
4
  0
STYLE
  2
KICAD
  70
0
  40
0
  41
1
  42
1
  50
0
  71
0
  3
isocp.shx
  0
STYLE
  2
KICADB
  70
0
  40
0
  41
1
  42
1
  50
0
  71
0
  3
isocp.shx
  0
STYLE
  2
KICADI
  70
0
  40
0
  41
1
  42
1
  50
15
  71
0
  3
isocp.shx
  0
STYLE
  2
KICADBI
  70
0
  40
0
  41
1
  42
1
  50
15
  71
0
  3
isocp.shx
  0
ENDTAB
  0
TABLE
  2
LAYER
  70
1
  0
LAYER
  2
BLACK
  70
0
  62
7
  6
CONTINUOUS
  0
ENDTAB
  0
ENDSEC
  0
SECTION
  2
ENTITIES
0
LINE
8
BLACK
6
CONTINUOUS
10
6.5813220472440941
20
-3.7671518110236222
11
6.5961708661417324
21
-3.7697700787401573
0
LINE
8
BLACK
6
CONTINUOUS
10
6.5961708661417324
20
-3.7697700787401573
11
6.6107349606299213
21
-3.7736725196850394
0
LINE
8
BLACK
6
CONTINUOUS
10
6.6107349606299213
20
-3.7736725196850394
11
6.6249035433070862
21
-3.7788294488188976
0
LINE
8
BLACK
6
CONTINUOUS
10
6.6249035433070862
20
-3.7788294488188976
11
6.6385687401574804
21
-3.7852016141732281
0
LINE
8
BLACK
6
CONTINUOUS
10
6.6385687401574804
20
-3.7852016141732281
11
6.6516265748031493
21
-3.7927405905511811
0
LINE
8
BLACK
6
CONTINUOUS
10
6.6516265748031493
20
-3.7927405905511811
11
6.6639776771653541
21
-3.801388897637795
0
LINE
8
BLACK
6
CONTINUOUS
10
6.6639776771653541
20
-3.801388897637795
11
6.6755279921259838
21
-3.8110807480314959
0
LINE
8
BLACK
6
CONTINUOUS
10
6.6755279921259838
20
-3.8110807480314959
11
6.6861896850393698
21
-3.8217424409448819
0
LINE
8
BLACK
6
CONTINUOUS
10
6.6861896850393698
20
-3.8217424409448819
11
6.6958815354330703
21
-3.8332927559055117
0
LINE
8
BLACK
6
CONTINUOUS
10
6.6958815354330703
20
-3.8332927559055117
11
6.7045298425196851
21
-3.8456438582677164
0
LINE
8
BLACK
6
CONTINUOUS
10
6.7045298425196851
20
-3.8456438582677164
11
6.7120688188976381
21
-3.8587016929133857
0
LINE
8
BLACK
6
CONTINUOUS
10
6.7120688188976381
20
-3.8587016929133857
11
6.7184409842519681
21
-3.8723668897637795
0
LINE
8
BLACK
6
CONTINUOUS
10
6.7184409842519681
20
-3.8723668897637795
11
6.7235979133858264
21
-3.8865354724409449
0
LINE
8
BLACK
6
CONTINUOUS
10
6.7235979133858264
20
-3.8865354724409449
11
6.7275003543307088
21
-3.9010995669291337
0
LINE
8
BLACK
6
CONTINUOUS
10
6.7275003543307088
20
-3.9010995669291337
11
6.730118622047244
21
-3.9159483858267716
0
LINE
8
BLACK
6
CONTINUOUS
10
6.730118622047244
20
-3.9159483858267716
11
6.7314327559055114
21
-3.9309688976377952
0
LINE
8
BLACK
6
CONTINUOUS
10
6.7314327559055114
20
-3.9309688976377952
11
6.7314327559055114
21
-3.9460467716535432
0
LINE
8
BLACK
6
CONTINUOUS
10
6.7314327559055114
20
-3.9460467716535432
11
6.730118622047244
21
-3.9610672834645668
0
LINE
8
BLACK
6
CONTINUOUS
10
6.730118622047244
20
-3.9610672834645668
11
6.7275003543307088
21
-3.9759161023622047
0
LINE
8
BLACK
6
CONTINUOUS
10
6.7275003543307088
20
-3.9759161023622047
11
6.7235979133858264
21
-3.9904801968503936
0
LINE
8
BLACK
6
CONTINUOUS
10
6.7235979133858264
20
-3.9904801968503936
11
6.7184409842519681
21
-4.0046487795275594
0
LINE
8
BLACK
6
CONTINUOUS
10
6.7184409842519681
20
-4.0046487795275594
11
6.7120688188976381
21
-4.0183139763779527
0
LINE
8
BLACK
6
CONTINUOUS
10
6.7120688188976381
20
-4.0183139763779527
11
6.7045298425196851
21
-4.0313718110236216
0
LINE
8
BLACK
6
CONTINUOUS
10
6.7045298425196851
20
-4.0313718110236216
11
6.6958815354330703
21
-4.0437229133858263
0
LINE
8
BLACK
6
CONTINUOUS
10
6.6958815354330703
20
-4.0437229133858263
11
6.6861896850393698
21
-4.055273228346457
0
LINE
8
BLACK
6
CONTINUOUS
10
6.6861896850393698
20
-4.055273228346457
11
6.6755279921259838
21
-4.0659349212598421
0
LINE
8
BLACK
6
CONTINUOUS
10
6.6755279921259838
20
-4.0659349212598421
11
6.6639776771653541
21
-4.0756267716535435
0
LINE
8
BLACK
6
CONTINUOUS
10
6.6639776771653541
20
-4.0756267716535435
11
6.6516265748031493
21
-4.0842750787401574
0
LINE
8
BLACK
6
CONTINUOUS
10
6.6516265748031493
20
-4.0842750787401574
11
6.6385687401574804
21
-4.0918140551181104
0
LINE
8
BLACK
6
CONTINUOUS
10
6.6385687401574804
20
-4.0918140551181104
11
6.6249035433070862
21
-4.0981862204724404
0
LINE
8
BLACK
6
CONTINUOUS
10
6.6249035433070862
20
-4.0981862204724404
11
6.6107349606299213
21
-4.1033431496062995
0
LINE
8
BLACK
6
CONTINUOUS
10
6.6107349606299213
20
-4.1033431496062995
11
6.5961708661417324
21
-4.1072455905511811
0
LINE
8
BLACK
6
CONTINUOUS
10
6.5961708661417324
20
-4.1072455905511811
11
6.5813220472440941
21
-4.1098638582677163
0
LINE
8
BLACK
6
CONTINUOUS
10
6.5813220472440941
20
-4.1098638582677163
11
6.5663015354330705
21
-4.1111779921259846
0
LINE
8
BLACK
6
CONTINUOUS
10
6.5663015354330705
20
-4.1111779921259846
11
6.5512236614173229
21
-4.1111779921259846
0
LINE
8
BLACK
6
CONTINUOUS
10
6.5512236614173229
20
-4.1111779921259846
11
6.5362031496062993
21
-4.1098638582677163
0
LINE
8
BLACK
6
CONTINUOUS
10
6.5362031496062993
20
-4.1098638582677163
11
6.521354330708661
21
-4.1072455905511811
0
LINE
8
BLACK
6
CONTINUOUS
10
6.521354330708661
20
-4.1072455905511811
11
6.5067902362204721
21
-4.1033431496062995
0
LINE
8
BLACK
6
CONTINUOUS
10
6.5067902362204721
20
-4.1033431496062995
11
6.4926216535433072
21
-4.0981862204724404
0
LINE
8
BLACK
6
CONTINUOUS
10
6.4926216535433072
20
-4.0981862204724404
11
6.478956456692913
21
-4.0918140551181104
0
LINE
8
BLACK
6
CONTINUOUS
10
6.478956456692913
20
-4.0918140551181104
11
6.4658986220472441
21
-4.0842750787401574
0
LINE
8
BLACK
6
CONTINUOUS
10
6.4658986220472441
20
-4.0842750787401574
11
6.4535475196850394
21
-4.0756267716535435
0
LINE
8
BLACK
6
CONTINUOUS
10
6.4535475196850394
20
-4.0756267716535435
11
6.4419972047244096
21
-4.0659349212598421
0
LINE
8
BLACK
6
CONTINUOUS
10
6.4419972047244096
20
-4.0659349212598421
11
6.4313355118110236
21
-4.055273228346457
0
LINE
8
BLACK
6
CONTINUOUS
10
6.4313355118110236
20
-4.055273228346457
11
6.4216436614173231
21
-4.0437229133858263
0
LINE
8
BLACK
6
CONTINUOUS
10
6.4216436614173231
20
-4.0437229133858263
11
6.4129953543307083
21
-4.0313718110236216
0
LINE
8
BLACK
6
CONTINUOUS
10
6.4129953543307083
20
-4.0313718110236216
11
6.4054563779527554
21
-4.0183139763779527
0
LINE
8
BLACK
6
CONTINUOUS
10
6.4054563779527554
20
-4.0183139763779527
11
6.3990842125984253
21
-4.0046487795275594
0
LINE
8
BLACK
6
CONTINUOUS
10
6.3990842125984253
20
-4.0046487795275594
11
6.3939272834645671
21
-3.9904801968503936
0
LINE
8
BLACK
6
CONTINUOUS
10
6.3939272834645671
20
-3.9904801968503936
11
6.3900248425196846
21
-3.9759161023622047
0
LINE
8
BLACK
6
CONTINUOUS
10
6.3900248425196846
20
-3.9759161023622047
11
6.3874065748031494
21
-3.9610672834645668
0
LINE
8
BLACK
6
CONTINUOUS
10
6.3874065748031494
20
-3.9610672834645668
11
6.386092440944882
21
-3.9460467716535432
0
LINE
8
BLACK
6
CONTINUOUS
10
6.386092440944882
20
-3.9460467716535432
11
6.386092440944882
21
-3.9309688976377952
0
LINE
8
BLACK
6
CONTINUOUS
10
6.386092440944882
20
-3.9309688976377952
11
6.3874065748031494
21
-3.9159483858267716
0
LINE
8
BLACK
6
CONTINUOUS
10
6.3874065748031494
20
-3.9159483858267716
11
6.3900248425196846
21
-3.9010995669291337
0
LINE
8
BLACK
6
CONTINUOUS
10
6.3900248425196846
20
-3.9010995669291337
11
6.3939272834645671
21
-3.8865354724409449
0
LINE
8
BLACK
6
CONTINUOUS
10
6.3939272834645671
20
-3.8865354724409449
11
6.3990842125984253
21
-3.8723668897637795
0
LINE
8
BLACK
6
CONTINUOUS
10
6.3990842125984253
20
-3.8723668897637795
11
6.4054563779527554
21
-3.8587016929133857
0
LINE
8
BLACK
6
CONTINUOUS
10
6.4054563779527554
20
-3.8587016929133857
11
6.4129953543307083
21
-3.8456438582677164
0
LINE
8
BLACK
6
CONTINUOUS
10
6.4129953543307083
20
-3.8456438582677164
11
6.4216436614173231
21
-3.8332927559055117
0
LINE
8
BLACK
6
CONTINUOUS
10
6.4216436614173231
20
-3.8332927559055117
11
6.4313355118110236
21
-3.8217424409448819
0
LINE
8
BLACK
6
CONTINUOUS
10
6.4313355118110236
20
-3.8217424409448819
11
6.4419972047244096
21
-3.8110807480314959
0
LINE
8
BLACK
6
CONTINUOUS
10
6.4419972047244096
20
-3.8110807480314959
11
6.4535475196850394
21
-3.801388897637795
0
LINE
8
BLACK
6
CONTINUOUS
10
6.4535475196850394
20
-3.801388897637795
11
6.4658986220472441
21
-3.7927405905511811
0
LINE
8
BLACK
6
CONTINUOUS
10
6.4658986220472441
20
-3.7927405905511811
11
6.478956456692913
21
-3.7852016141732281
0
LINE
8
BLACK
6
CONTINUOUS
10
6.478956456692913
20
-3.7852016141732281
11
6.4926216535433072
21
-3.7788294488188976
0
LINE
8
BLACK
6
CONTINUOUS
10
6.4926216535433072
20
-3.7788294488188976
11
6.5067902362204721
21
-3.7736725196850394
0
LINE
8
BLACK
6
CONTINUOUS
10
6.5067902362204721
20
-3.7736725196850394
11
6.521354330708661
21
-3.7697700787401573
0
LINE
8
BLACK
6
CONTINUOUS
10
6.521354330708661
20
-3.7697700787401573
11
6.5362031496062993
21
-3.7671518110236222
0
LINE
8
BLACK
6
CONTINUOUS
10
6.5362031496062993
20
-3.7671518110236222
11
6.5512236614173229
21
-3.7658376771653543
0
LINE
8
BLACK
6
CONTINUOUS
10
6.5512236614173229
20
-3.7658376771653543
11
6.5663015354330705
21
-3.7658376771653543
0
LINE
8
BLACK
6
CONTINUOUS
10
6.5663015354330705
20
-3.7658376771653543
11
6.5813220472440941
21
-3.7671518110236222
0
LINE
8
BLACK
6
CONTINUOUS
10
4.3756746850393702
20
-1.9183071653543307
11
4.3762073622047239
21
-1.9188398425196851
0
LINE
8
BLACK
6
CONTINUOUS
10
4.3762073622047239
20
-1.9188398425196851
11
4.3762822834645672
21
-1.9192164960629921
0
LINE
8
BLACK
6
CONTINUOUS
10
4.3762822834645672
20
-1.9192164960629921
11
4.3762822834645672
21
-2.011736181102362
0
LINE
8
BLACK
6
CONTINUOUS
10
4.3762822834645672
20
-2.011736181102362
11
5.1700814960629922
21
-2.011736181102362
0
LINE
8
BLACK
6
CONTINUOUS
10
5.1700814960629922
20
-2.011736181102362
11
5.1704581496062989
21
-2.0118111023622047
0
LINE
8
BLACK
6
CONTINUOUS
10
5.1704581496062989
20
-2.0118111023622047
11
5.1709908267716536
21
-2.0123437795275589
0
LINE
8
BLACK
6
CONTINUOUS
10
5.1709908267716536
20
-2.0123437795275589
11
5.1710657480314959
21
-2.0127204330708661
0
LINE
8
BLACK
6
CONTINUOUS
10
5.1710657480314959
20
-2.0127204330708661
11
5.1710657480314959
21
-2.105240118110236
0
LINE
8
BLACK
6
CONTINUOUS
10
5.1710657480314959
20
-2.105240118110236
11
6.7596484251968505
21
-2.105240118110236
0
LINE
8
BLACK
6
CONTINUOUS
10
6.7596484251968505
20
-2.105240118110236
11
6.7600250787401572
21
-2.1053150393700788
0
LINE
8
BLACK
6
CONTINUOUS
10
6.7600250787401572
20
-2.1053150393700788
11
6.7600260629921261
21
-2.1053160236220472
0
LINE
8
BLACK
6
CONTINUOUS
10
6.7600260629921261
20
-2.1053160236220472
11
6.760027519685039
21
-2.1053160629921259
0
LINE
8
BLACK
6
CONTINUOUS
10
6.760027519685039
20
-2.1053160629921259
11
6.7602894881889766
21
-2.1055794488188977
0
LINE
8
BLACK
6
CONTINUOUS
10
6.7602894881889766
20
-2.1055794488188977
11
6.7605577559055119
21
-2.105847716535433
0
LINE
8
BLACK
6
CONTINUOUS
10
6.7605577559055119
20
-2.105847716535433
11
6.7605577559055119
21
-2.1058491338582677
0
LINE
8
BLACK
6
CONTINUOUS
10
6.7605577559055119
20
-2.1058491338582677
11
6.7605587795275586
21
-2.1058501968503935
0
LINE
8
BLACK
6
CONTINUOUS
10
6.7605587795275586
20
-2.1058501968503935
11
6.7606326771653542
21
-2.1062270472440945
0
LINE
8
BLACK
6
CONTINUOUS
10
6.7606326771653542
20
-2.1062270472440945
11
6.754184133858268
21
-4.501862362204724
0
LINE
8
BLACK
6
CONTINUOUS
10
6.754184133858268
20
-4.501862362204724
11
6.7541666929133859
21
-4.5019486614173223
0
LINE
8
BLACK
6
CONTINUOUS
10
6.7541666929133859
20
-4.5019486614173223
11
6.754176299212598
21
-4.5019838188976378
0
LINE
8
BLACK
6
CONTINUOUS
10
6.754176299212598
20
-4.5019838188976378
11
6.7541342913385822
21
-4.5021092913385825
0
LINE
8
BLACK
6
CONTINUOUS
10
6.7541342913385822
20
-4.5021092913385825
11
6.7541081889763781
21
-4.5022388188976379
0
LINE
8
BLACK
6
CONTINUOUS
10
6.7541081889763781
20
-4.5022388188976379
11
6.7540824015748031
21
-4.5022644488188979
0
LINE
8
BLACK
6
CONTINUOUS
10
6.7540824015748031
20
-4.5022644488188979
11
6.7540544488188976
21
-4.5023480314960631
0
LINE
8
BLACK
6
CONTINUOUS
10
6.7540544488188976
20
-4.5023480314960631
11
6.3849543700787397
21
-5.1482731102362207
0
LINE
8
BLACK
6
CONTINUOUS
10
6.3849543700787397
20
-5.1482731102362207
11
6.3847024409448814
21
-5.1485629921259841
0
LINE
8
BLACK
6
CONTINUOUS
10
6.3847024409448814
20
-5.1485629921259841
11
6.3845983070866144
21
-5.1485913779527559
0
LINE
8
BLACK
6
CONTINUOUS
10
6.3845983070866144
20
-5.1485913779527559
11
6.3845263385826767
21
-5.1486718503937006
0
LINE
8
BLACK
6
CONTINUOUS
10
6.3845263385826767
20
-5.1486718503937006
11
6.3841544094488185
21
-5.1487675196850393
0
LINE
8
BLACK
6
CONTINUOUS
10
6.3841544094488185
20
-5.1487675196850393
11
5.5909038188976377
21
-5.1928370472440948
0
LINE
8
BLACK
6
CONTINUOUS
10
5.5909038188976377
20
-5.1928370472440948
11
5.5907501968503936
21
-5.192815236220472
0
LINE
8
BLACK
6
CONTINUOUS
10
5.5907501968503936
20
-5.192815236220472
11
5.5905955905511808
21
-5.1928053149606299
0
LINE
8
BLACK
6
CONTINUOUS
10
5.5905955905511808
20
-5.1928053149606299
11
4.8894406692913384
21
-5.0058306692913384
0
LINE
8
BLACK
6
CONTINUOUS
10
4.8894406692913384
20
-5.0058306692913384
11
4.0480342519685042
21
-5.0058306692913384
0
LINE
8
BLACK
6
CONTINUOUS
10
4.0480342519685042
20
-5.0058306692913384
11
4.0476575984251966
21
-5.005755748031496
0
LINE
8
BLACK
6
CONTINUOUS
10
4.0476575984251966
20
-5.005755748031496
11
4.0471249212598428
21
-5.0052230708661414
0
LINE
8
BLACK
6
CONTINUOUS
10
4.0471249212598428
20
-5.0052230708661414
11
4.0470499999999996
21
-5.0048464173228346
0
LINE
8
BLACK
6
CONTINUOUS
10
4.0470499999999996
20
-5.0048464173228346
11
4.0470499999999996
21
-4.2110472047244096
0
LINE
8
BLACK
6
CONTINUOUS
10
4.0470499999999996
20
-4.2110472047244096
11
3.6750027559055116
21
-4.2110472047244096
0
LINE
8
BLACK
6
CONTINUOUS
10
3.6750027559055116
20
-4.2110472047244096
11
3.6750027559055116
21
-4.3503188582677161
0
LINE
8
BLACK
6
CONTINUOUS
10
3.6750027559055116
20
-4.3503188582677161
11
3.6749278346456693
21
-4.3506955118110238
0
LINE
8
BLACK
6
CONTINUOUS
10
3.6749278346456693
20
-4.3506955118110238
11
3.6743951574803151
21
-4.3512281889763775
0
LINE
8
BLACK
6
CONTINUOUS
10
3.6743951574803151
20
-4.3512281889763775
11
3.6740185039370079
21
-4.3513031102362207
0
LINE
8
BLACK
6
CONTINUOUS
10
3.6740185039370079
20
-4.3513031102362207
11
2.9269712598425195
21
-4.3513031102362207
0
LINE
8
BLACK
6
CONTINUOUS
10
2.9269712598425195
20
-4.3513031102362207
11
2.9269712598425195
21
-4.4438227952755902
0
LINE
8
BLACK
6
CONTINUOUS
10
2.9269712598425195
20
-4.4438227952755902
11
2.9268963385826772
21
-4.4441994488188978
0
LINE
8
BLACK
6
CONTINUOUS
10
2.9268963385826772
20
-4.4441994488188978
11
2.926363661417323
21
-4.4447321259842516
0
LINE
8
BLACK
6
CONTINUOUS
10
2.926363661417323
20
-4.4447321259842516
11
2.9259870078740158
21
-4.4448070472440948
0
LINE
8
BLACK
6
CONTINUOUS
10
2.9259870078740158
20
-4.4448070472440948
11
1.3364200787401574
21
-4.4448070472440948
0
LINE
8
BLACK
6
CONTINUOUS
10
1.3364200787401574
20
-4.4448070472440948
11
1.3360434251968503
21
-4.4447321259842516
0
LINE
8
BLACK
6
CONTINUOUS
10
1.3360434251968503
20
-4.4447321259842516
11
1.3355107480314961
21
-4.4441994488188978
0
LINE
8
BLACK
6
CONTINUOUS
10
1.3355107480314961
20
-4.4441994488188978
11
1.3354358267716535
21
-4.4438227952755902
0
LINE
8
BLACK
6
CONTINUOUS
10
1.3354358267716535
20
-4.4438227952755902
11
1.3354358267716535
21
-2.1997283070866143
0
LINE
8
BLACK
6
CONTINUOUS
10
1.3354358267716535
20
-2.1997283070866143
11
1.3355107480314961
21
-2.1993516535433071
0
LINE
8
BLACK
6
CONTINUOUS
10
1.3355107480314961
20
-2.1993516535433071
11
1.3360434251968503
21
-2.1988189763779529
0
LINE
8
BLACK
6
CONTINUOUS
10
1.3360434251968503
20
-2.1988189763779529
11
1.3364200787401574
21
-2.1987440551181101
0
LINE
8
BLACK
6
CONTINUOUS
10
1.3364200787401574
20
-2.1987440551181101
11
2.8314988188976375
21
-2.1987440551181101
0
LINE
8
BLACK
6
CONTINUOUS
10
2.8314988188976375
20
-2.1987440551181101
11
2.8314988188976375
21
-2.1062243700787402
0
LINE
8
BLACK
6
CONTINUOUS
10
2.8314988188976375
20
-2.1062243700787402
11
2.8315737401574803
21
-2.105847716535433
0
LINE
8
BLACK
6
CONTINUOUS
10
2.8315737401574803
20
-2.105847716535433
11
2.8321064173228345
21
-2.1053150393700788
0
LINE
8
BLACK
6
CONTINUOUS
10
2.8321064173228345
20
-2.1053150393700788
11
2.8324830708661417
21
-2.105240118110236
0
LINE
8
BLACK
6
CONTINUOUS
10
2.8324830708661417
20
-2.105240118110236
11
3.5795303149606297
21
-2.105240118110236
0
LINE
8
BLACK
6
CONTINUOUS
10
3.5795303149606297
20
-2.105240118110236
11
3.5795303149606297
21
-1.9192164960629921
0
LINE
8
BLACK
6
CONTINUOUS
10
3.5795303149606297
20
-1.9192164960629921
11
3.5796052362204724
21
-1.9188398425196851
0
LINE
8
BLACK
6
CONTINUOUS
10
3.5796052362204724
20
-1.9188398425196851
11
3.5801379133858267
21
-1.9183071653543307
0
LINE
8
BLACK
6
CONTINUOUS
10
3.5801379133858267
20
-1.9183071653543307
11
3.5805145669291338
21
-1.9182322440944881
0
LINE
8
BLACK
6
CONTINUOUS
10
3.5805145669291338
20
-1.9182322440944881
11
4.3752980314960626
21
-1.9182322440944881
0
LINE
8
BLACK
6
CONTINUOUS
10
4.3752980314960626
20
-1.9182322440944881
11
4.3756746850393702
21
-1.9183071653543307
0
LINE
8
BLACK
6
CONTINUOUS
10
3.5814988188976375
20
-1.920200748031496
11
3.5814988188976375
21
-2.1062243700787402
0
LINE
8
BLACK
6
CONTINUOUS
10
3.5814988188976375
20
-2.1062243700787402
11
3.5814238976377952
21
-2.1066010236220474
0
LINE
8
BLACK
6
CONTINUOUS
10
3.5814238976377952
20
-2.1066010236220474
11
3.580891220472441
21
-2.1071337007874016
0
LINE
8
BLACK
6
CONTINUOUS
10
3.580891220472441
20
-2.1071337007874016
11
3.5805145669291338
21
-2.1072086220472439
0
LINE
8
BLACK
6
CONTINUOUS
10
3.5805145669291338
20
-2.1072086220472439
11
2.8334673228346454
21
-2.1072086220472439
0
LINE
8
BLACK
6
CONTINUOUS
10
2.8334673228346454
20
-2.1072086220472439
11
2.8334673228346454
21
-2.1997283070866143
0
LINE
8
BLACK
6
CONTINUOUS
10
2.8334673228346454
20
-2.1997283070866143
11
2.8333924015748031
21
-2.200104960629921
0
LINE
8
BLACK
6
CONTINUOUS
10
2.8333924015748031
20
-2.200104960629921
11
2.8328597244094489
21
-2.2006376377952757
0
LINE
8
BLACK
6
CONTINUOUS
10
2.8328597244094489
20
-2.2006376377952757
11
2.8324830708661417
21
-2.200712559055118
0
LINE
8
BLACK
6
CONTINUOUS
10
2.8324830708661417
20
-2.200712559055118
11
1.3374043307086614
21
-2.200712559055118
0
LINE
8
BLACK
6
CONTINUOUS
10
1.3374043307086614
20
-2.200712559055118
11
1.3374043307086614
21
-4.4428385433070865
0
LINE
8
BLACK
6
CONTINUOUS
10
1.3374043307086614
20
-4.4428385433070865
11
2.9250027559055116
21
-4.4428385433070865
0
LINE
8
BLACK
6
CONTINUOUS
10
2.9250027559055116
20
-4.4428385433070865
11
2.9250027559055116
21
-4.3503188582677161
0
LINE
8
BLACK
6
CONTINUOUS
10
2.9250027559055116
20
-4.3503188582677161
11
2.9250776771653544
21
-4.3499422047244094
0
LINE
8
BLACK
6
CONTINUOUS
10
2.9250776771653544
20
-4.3499422047244094
11
2.9256103543307086
21
-4.3494095275590547
0
LINE
8
BLACK
6
CONTINUOUS
10
2.9256103543307086
20
-4.3494095275590547
11
2.9259870078740158
21
-4.3493346062992124
0
LINE
8
BLACK
6
CONTINUOUS
10
2.9259870078740158
20
-4.3493346062992124
11
3.6730342519685037
21
-4.3493346062992124
0
LINE
8
BLACK
6
CONTINUOUS
10
3.6730342519685037
20
-4.3493346062992124
11
3.6730342519685037
21
-4.210062952755905
0
LINE
8
BLACK
6
CONTINUOUS
10
3.6730342519685037
20
-4.210062952755905
11
3.6731091732283465
21
-4.2096862992125983
0
LINE
8
BLACK
6
CONTINUOUS
10
3.6731091732283465
20
-4.2096862992125983
11
3.6736418503937007
21
-4.2091536220472436
0
LINE
8
BLACK
6
CONTINUOUS
10
3.6736418503937007
20
-4.2091536220472436
11
3.6740185039370079
21
-4.2090787007874013
0
LINE
8
BLACK
6
CONTINUOUS
10
3.6740185039370079
20
-4.2090787007874013
11
4.0480342519685042
21
-4.2090787007874013
0
LINE
8
BLACK
6
CONTINUOUS
10
4.0480342519685042
20
-4.2090787007874013
11
4.0484109055118109
21
-4.2091536220472436
0
LINE
8
BLACK
6
CONTINUOUS
10
4.0484109055118109
20
-4.2091536220472436
11
4.0489435826771656
21
-4.2096862992125983
0
LINE
8
BLACK
6
CONTINUOUS
10
4.0489435826771656
20
-4.2096862992125983
11
4.0490185039370079
21
-4.210062952755905
0
LINE
8
BLACK
6
CONTINUOUS
10
4.0490185039370079
20
-4.210062952755905
11
4.0490185039370079
21
-5.0038621653543309
0
LINE
8
BLACK
6
CONTINUOUS
10
4.0490185039370079
20
-5.0038621653543309
11
4.88956968503937
21
-5.0038621653543309
0
LINE
8
BLACK
6
CONTINUOUS
10
4.88956968503937
20
-5.0038621653543309
11
4.8896953543307085
21
-5.0038871653543309
0
LINE
8
BLACK
6
CONTINUOUS
10
4.8896953543307085
20
-5.0038871653543309
11
4.8898233070866137
21
-5.0038953937007875
0
LINE
8
BLACK
6
CONTINUOUS
10
4.8898233070866137
20
-5.0038953937007875
11
5.5909511417322832
21
-5.1908628346456691
0
LINE
8
BLACK
6
CONTINUOUS
10
5.5909511417322832
20
-5.1908628346456691
11
6.3835107874015744
21
-5.1468317322834647
0
LINE
8
BLACK
6
CONTINUOUS
10
6.3835107874015744
20
-5.1468317322834647
11
6.7522162992125985
21
-4.501597086614173
0
LINE
8
BLACK
6
CONTINUOUS
10
6.7522162992125985
20
-4.501597086614173
11
6.7586615354330704
21
-2.1072086220472439
0
LINE
8
BLACK
6
CONTINUOUS
10
6.7586615354330704
20
-2.1072086220472439
11
5.1700814960629922
21
-2.1072086220472439
0
LINE
8
BLACK
6
CONTINUOUS
10
5.1700814960629922
20
-2.1072086220472439
11
5.1697048425196845
21
-2.1071337007874016
0
LINE
8
BLACK
6
CONTINUOUS
10
5.1697048425196845
20
-2.1071337007874016
11
5.1691721653543308
21
-2.1066010236220474
0
LINE
8
BLACK
6
CONTINUOUS
10
5.1691721653543308
20
-2.1066010236220474
11
5.1690972440944885
21
-2.1062243700787402
0
LINE
8
BLACK
6
CONTINUOUS
10
5.1690972440944885
20
-2.1062243700787402
11
5.1690972440944885
21
-2.0137046850393698
0
LINE
8
BLACK
6
CONTINUOUS
10
5.1690972440944885
20
-2.0137046850393698
11
4.3752980314960626
21
-2.0137046850393698
0
LINE
8
BLACK
6
CONTINUOUS
10
4.3752980314960626
20
-2.0137046850393698
11
4.3749213779527558
21
-2.0136297637795275
0
LINE
8
BLACK
6
CONTINUOUS
10
4.3749213779527558
20
-2.0136297637795275
11
4.3743887007874012
21
-2.0130970866141733
0
LINE
8
BLACK
6
CONTINUOUS
10
4.3743887007874012
20
-2.0130970866141733
11
4.3743137795275588
21
-2.0127204330708661
0
LINE
8
BLACK
6
CONTINUOUS
10
4.3743137795275588
20
-2.0127204330708661
11
4.3743137795275588
21
-1.920200748031496
0
LINE
8
BLACK
6
CONTINUOUS
10
4.3743137795275588
20
-1.920200748031496
11
3.5814988188976375
21
-1.920200748031496
0
LINE
8
BLACK
6
CONTINUOUS
10
7.1872275590551178
20
-3.7620337007874016
11
7.2020763779527561
21
-3.7646519685039368
0
LINE
8
BLACK
6
CONTINUOUS
10
7.2020763779527561
20
-3.7646519685039368
11
7.216640472440945
21
-3.7685544094488188
0
LINE
8
BLACK
6
CONTINUOUS
10
7.216640472440945
20
-3.7685544094488188
11
7.2308090551181099
21
-3.773711338582677
0
LINE
8
BLACK
6
CONTINUOUS
10
7.2308090551181099
20
-3.773711338582677
11
7.2444742519685041
21
-3.780083503937008
0
LINE
8
BLACK
6
CONTINUOUS
10
7.2444742519685041
20
-3.780083503937008
11
7.257532086614173
21
-3.7876224803149605
0
LINE
8
BLACK
6
CONTINUOUS
10
7.257532086614173
20
-3.7876224803149605
11
7.2698831889763778
21
-3.7962707874015749
0
LINE
8
BLACK
6
CONTINUOUS
10
7.2698831889763778
20
-3.7962707874015749
11
7.2814335039370075
21
-3.8059626377952753
0
LINE
8
BLACK
6
CONTINUOUS
10
7.2814335039370075
20
-3.8059626377952753
11
7.2920951968503935
21
-3.8166243307086614
0
LINE
8
BLACK
6
CONTINUOUS
10
7.2920951968503935
20
-3.8166243307086614
11
7.301787047244094
21
-3.8281746456692911
0
LINE
8
BLACK
6
CONTINUOUS
10
7.301787047244094
20
-3.8281746456692911
11
7.3104353543307088
21
-3.8405257480314958
0
LINE
8
BLACK
6
CONTINUOUS
10
7.3104353543307088
20
-3.8405257480314958
11
7.3179743307086609
21
-3.8535835826771652
0
LINE
8
BLACK
6
CONTINUOUS
10
7.3179743307086609
20
-3.8535835826771652
11
7.3243464960629918
21
-3.867248779527559
0
LINE
8
BLACK
6
CONTINUOUS
10
7.3243464960629918
20
-3.867248779527559
11
7.3295034251968501
21
-3.8814173622047243
0
LINE
8
BLACK
6
CONTINUOUS
10
7.3295034251968501
20
-3.8814173622047243
11
7.3334058661417325
21
-3.8959814566929132
0
LINE
8
BLACK
6
CONTINUOUS
10
7.3334058661417325
20
-3.8959814566929132
11
7.3360241338582677
21
-3.9108302755905511
0
LINE
8
BLACK
6
CONTINUOUS
10
7.3360241338582677
20
-3.9108302755905511
11
7.3373382677165351
21
-3.9258507874015747
0
LINE
8
BLACK
6
CONTINUOUS
10
7.3373382677165351
20
-3.9258507874015747
11
7.3373382677165351
21
-3.9409286614173227
0
LINE
8
BLACK
6
CONTINUOUS
10
7.3373382677165351
20
-3.9409286614173227
11
7.3360241338582677
21
-3.9559491732283463
0
LINE
8
BLACK
6
CONTINUOUS
10
7.3360241338582677
20
-3.9559491732283463
11
7.3334058661417325
21
-3.9707979921259842
0
LINE
8
BLACK
6
CONTINUOUS
10
7.3334058661417325
20
-3.9707979921259842
11
7.3295034251968501
21
-3.985362086614173
0
LINE
8
BLACK
6
CONTINUOUS
10
7.3295034251968501
20
-3.985362086614173
11
7.3243464960629918
21
-3.9995306692913384
0
LINE
8
BLACK
6
CONTINUOUS
10
7.3243464960629918
20
-3.9995306692913384
11
7.3179743307086609
21
-4.0131958661417322
0
LINE
8
BLACK
6
CONTINUOUS
10
7.3179743307086609
20
-4.0131958661417322
11
7.3104353543307088
21
-4.0262537007874011
0
LINE
8
BLACK
6
CONTINUOUS
10
7.3104353543307088
20
-4.0262537007874011
11
7.301787047244094
21
-4.0386048031496058
0
LINE
8
BLACK
6
CONTINUOUS
10
7.301787047244094
20
-4.0386048031496058
11
7.2920951968503935
21
-4.0501551181102364
0
LINE
8
BLACK
6
CONTINUOUS
10
7.2920951968503935
20
-4.0501551181102364
11
7.2814335039370075
21
-4.0608168110236216
0
LINE
8
BLACK
6
CONTINUOUS
10
7.2814335039370075
20
-4.0608168110236216
11
7.2698831889763778
21
-4.0705086614173229
0
LINE
8
BLACK
6
CONTINUOUS
10
7.2698831889763778
20
-4.0705086614173229
11
7.257532086614173
21
-4.0791569685039368
0
LINE
8
BLACK
6
CONTINUOUS
10
7.257532086614173
20
-4.0791569685039368
11
7.2444742519685041
21
-4.0866959448818898
0
LINE
8
BLACK
6
CONTINUOUS
10
7.2444742519685041
20
-4.0866959448818898
11
7.2308090551181099
21
-4.0930681102362207
0
LINE
8
BLACK
6
CONTINUOUS
10
7.2308090551181099
20
-4.0930681102362207
11
7.216640472440945
21
-4.098225039370079
0
LINE
8
BLACK
6
CONTINUOUS
10
7.216640472440945
20
-4.098225039370079
11
7.2020763779527561
21
-4.1021274803149606
0
LINE
8
BLACK
6
CONTINUOUS
10
7.2020763779527561
20
-4.1021274803149606
11
7.1872275590551178
21
-4.1047457480314957
0
LINE
8
BLACK
6
CONTINUOUS
10
7.1872275590551178
20
-4.1047457480314957
11
7.1722070472440942
21
-4.106059881889764
0
LINE
8
BLACK
6
CONTINUOUS
10
7.1722070472440942
20
-4.106059881889764
11
7.1571291732283466
21
-4.106059881889764
0
LINE
8
BLACK
6
CONTINUOUS
10
7.1571291732283466
20
-4.106059881889764
11
7.142108661417323
21
-4.1047457480314957
0
LINE
8
BLACK
6
CONTINUOUS
10
7.142108661417323
20
-4.1047457480314957
11
7.1272598425196847
21
-4.1021274803149606
0
LINE
8
BLACK
6
CONTINUOUS
10
7.1272598425196847
20
-4.1021274803149606
11
7.1126957480314958
21
-4.098225039370079
0
LINE
8
BLACK
6
CONTINUOUS
10
7.1126957480314958
20
-4.098225039370079
11
7.0985271653543309
21
-4.0930681102362207
0
LINE
8
BLACK
6
CONTINUOUS
10
7.0985271653543309
20
-4.0930681102362207
11
7.0848619685039367
21
-4.0866959448818898
0
LINE
8
BLACK
6
CONTINUOUS
10
7.0848619685039367
20
-4.0866959448818898
11
7.0718041338582678
21
-4.0791569685039368
0
LINE
8
BLACK
6
CONTINUOUS
10
7.0718041338582678
20
-4.0791569685039368
11
7.0594530314960631
21
-4.0705086614173229
0
LINE
8
BLACK
6
CONTINUOUS
10
7.0594530314960631
20
-4.0705086614173229
11
7.0479027165354333
21
-4.0608168110236216
0
LINE
8
BLACK
6
CONTINUOUS
10
7.0479027165354333
20
-4.0608168110236216
11
7.0372410236220473
21
-4.0501551181102364
0
LINE
8
BLACK
6
CONTINUOUS
10
7.0372410236220473
20
-4.0501551181102364
11
7.0275491732283459
21
-4.0386048031496058
0
LINE
8
BLACK
6
CONTINUOUS
10
7.0275491732283459
20
-4.0386048031496058
11
7.018900866141732
21
-4.0262537007874011
0
LINE
8
BLACK
6
CONTINUOUS
10
7.018900866141732
20
-4.0262537007874011
11
7.0113618897637791
21
-4.0131958661417322
0
LINE
8
BLACK
6
CONTINUOUS
10
7.0113618897637791
20
-4.0131958661417322
11
7.004989724409449
21
-3.9995306692913384
0
LINE
8
BLACK
6
CONTINUOUS
10
7.004989724409449
20
-3.9995306692913384
11
6.9998327952755908
21
-3.985362086614173
0
LINE
8
BLACK
6
CONTINUOUS
10
6.9998327952755908
20
-3.985362086614173
11
6.9959303543307083
21
-3.9707979921259842
0
LINE
8
BLACK
6
CONTINUOUS
10
6.9959303543307083
20
-3.9707979921259842
11
6.9933120866141731
21
-3.9559491732283463
0
LINE
8
BLACK
6
CONTINUOUS
10
6.9933120866141731
20
-3.9559491732283463
11
6.9919979527559057
21
-3.9409286614173227
0
LINE
8
BLACK
6
CONTINUOUS
10
6.9919979527559057
20
-3.9409286614173227
11
6.9919979527559057
21
-3.9258507874015747
0
LINE
8
BLACK
6
CONTINUOUS
10
6.9919979527559057
20
-3.9258507874015747
11
6.9933120866141731
21
-3.9108302755905511
0
LINE
8
BLACK
6
CONTINUOUS
10
6.9933120866141731
20
-3.9108302755905511
11
6.9959303543307083
21
-3.8959814566929132
0
LINE
8
BLACK
6
CONTINUOUS
10
6.9959303543307083
20
-3.8959814566929132
11
6.9998327952755908
21
-3.8814173622047243
0
LINE
8
BLACK
6
CONTINUOUS
10
6.9998327952755908
20
-3.8814173622047243
11
7.004989724409449
21
-3.867248779527559
0
LINE
8
BLACK
6
CONTINUOUS
10
7.004989724409449
20
-3.867248779527559
11
7.0113618897637791
21
-3.8535835826771652
0
LINE
8
BLACK
6
CONTINUOUS
10
7.0113618897637791
20
-3.8535835826771652
11
7.018900866141732
21
-3.8405257480314958
0
LINE
8
BLACK
6
CONTINUOUS
10
7.018900866141732
20
-3.8405257480314958
11
7.0275491732283459
21
-3.8281746456692911
0
LINE
8
BLACK
6
CONTINUOUS
10
7.0275491732283459
20
-3.8281746456692911
11
7.0372410236220473
21
-3.8166243307086614
0
LINE
8
BLACK
6
CONTINUOUS
10
7.0372410236220473
20
-3.8166243307086614
11
7.0479027165354333
21
-3.8059626377952753
0
LINE
8
BLACK
6
CONTINUOUS
10
7.0479027165354333
20
-3.8059626377952753
11
7.0594530314960631
21
-3.7962707874015749
0
LINE
8
BLACK
6
CONTINUOUS
10
7.0594530314960631
20
-3.7962707874015749
11
7.0718041338582678
21
-3.7876224803149605
0
LINE
8
BLACK
6
CONTINUOUS
10
7.0718041338582678
20
-3.7876224803149605
11
7.0848619685039367
21
-3.780083503937008
0
LINE
8
BLACK
6
CONTINUOUS
10
7.0848619685039367
20
-3.780083503937008
11
7.0985271653543309
21
-3.773711338582677
0
LINE
8
BLACK
6
CONTINUOUS
10
7.0985271653543309
20
-3.773711338582677
11
7.1126957480314958
21
-3.7685544094488188
0
LINE
8
BLACK
6
CONTINUOUS
10
7.1126957480314958
20
-3.7685544094488188
11
7.1272598425196847
21
-3.7646519685039368
0
LINE
8
BLACK
6
CONTINUOUS
10
7.1272598425196847
20
-3.7646519685039368
11
7.142108661417323
21
-3.7620337007874016
0
LINE
8
BLACK
6
CONTINUOUS
10
7.142108661417323
20
-3.7620337007874016
11
7.1571291732283466
21
-3.7607195669291338
0
LINE
8
BLACK
6
CONTINUOUS
10
7.1571291732283466
20
-3.7607195669291338
11
7.1722070472440942
21
-3.7607195669291338
0
LINE
8
BLACK
6
CONTINUOUS
10
7.1722070472440942
20
-3.7607195669291338
11
7.1872275590551178
21
-3.7620337007874016
0
LINE
8
BLACK
6
CONTINUOUS
10
10.1409305905511804
20
-1.9183071653543307
11
10.1414632677165351
21
-1.9188398425196851
0
LINE
8
BLACK
6
CONTINUOUS
10
10.1414632677165351
20
-1.9188398425196851
11
10.1415381889763783
21
-1.9192164960629921
0
LINE
8
BLACK
6
CONTINUOUS
10
10.1415381889763783
20
-1.9192164960629921
11
10.1415381889763783
21
-2.105240118110236
0
LINE
8
BLACK
6
CONTINUOUS
10
10.1415381889763783
20
-2.105240118110236
11
10.8885854330708653
21
-2.105240118110236
0
LINE
8
BLACK
6
CONTINUOUS
10
10.8885854330708653
20
-2.105240118110236
11
10.888962086614173
21
-2.1053150393700788
0
LINE
8
BLACK
6
CONTINUOUS
10
10.888962086614173
20
-2.1053150393700788
11
10.8894947637795276
21
-2.105847716535433
0
LINE
8
BLACK
6
CONTINUOUS
10
10.8894947637795276
20
-2.105847716535433
11
10.8895696850393691
21
-2.1062243700787402
0
LINE
8
BLACK
6
CONTINUOUS
10
10.8895696850393691
20
-2.1062243700787402
11
10.8895696850393691
21
-2.1987440551181101
0
LINE
8
BLACK
6
CONTINUOUS
10
10.8895696850393691
20
-2.1987440551181101
11
12.4314003937007875
21
-2.1987440551181101
0
LINE
8
BLACK
6
CONTINUOUS
10
12.4314003937007875
20
-2.1987440551181101
11
12.4317770472440934
21
-2.1988189763779529
0
LINE
8
BLACK
6
CONTINUOUS
10
12.4317770472440934
20
-2.1988189763779529
11
12.432309724409448
21
-2.1993516535433071
0
LINE
8
BLACK
6
CONTINUOUS
10
12.432309724409448
20
-2.1993516535433071
11
12.4323846456692912
21
-2.1997283070866143
0
LINE
8
BLACK
6
CONTINUOUS
10
12.4323846456692912
20
-2.1997283070866143
11
12.4323846456692912
21
-4.4438227952755902
0
LINE
8
BLACK
6
CONTINUOUS
10
12.4323846456692912
20
-4.4438227952755902
11
12.432309724409448
21
-4.4441994488188978
0
LINE
8
BLACK
6
CONTINUOUS
10
12.432309724409448
20
-4.4441994488188978
11
12.4317770472440934
21
-4.4447321259842516
0
LINE
8
BLACK
6
CONTINUOUS
10
12.4317770472440934
20
-4.4447321259842516
11
12.4314003937007875
21
-4.4448070472440948
0
LINE
8
BLACK
6
CONTINUOUS
10
12.4314003937007875
20
-4.4448070472440948
11
10.7950814960629913
21
-4.4448070472440948
0
LINE
8
BLACK
6
CONTINUOUS
10
10.7950814960629913
20
-4.4448070472440948
11
10.7947048425196854
21
-4.4447321259842516
0
LINE
8
BLACK
6
CONTINUOUS
10
10.7947048425196854
20
-4.4447321259842516
11
10.7941721653543308
21
-4.4441994488188978
0
LINE
8
BLACK
6
CONTINUOUS
10
10.7941721653543308
20
-4.4441994488188978
11
10.7940972440944876
21
-4.4438227952755902
0
LINE
8
BLACK
6
CONTINUOUS
10
10.7940972440944876
20
-4.4438227952755902
11
10.7940972440944876
21
-4.3513031102362207
0
LINE
8
BLACK
6
CONTINUOUS
10
10.7940972440944876
20
-4.3513031102362207
11
10.0470500000000005
21
-4.3513031102362207
0
LINE
8
BLACK
6
CONTINUOUS
10
10.0470500000000005
20
-4.3513031102362207
11
10.0466733464566929
21
-4.3512281889763775
0
LINE
8
BLACK
6
CONTINUOUS
10
10.0466733464566929
20
-4.3512281889763775
11
10.0461406692913382
21
-4.3506955118110238
0
LINE
8
BLACK
6
CONTINUOUS
10
10.0461406692913382
20
-4.3506955118110238
11
10.046065748031495
21
-4.3503188582677161
0
LINE
8
BLACK
6
CONTINUOUS
10
10.046065748031495
20
-4.3503188582677161
11
10.046065748031495
21
-4.2110472047244096
0
LINE
8
BLACK
6
CONTINUOUS
10
10.046065748031495
20
-4.2110472047244096
11
9.7207704724409449
21
-4.2110472047244096
0
LINE
8
BLACK
6
CONTINUOUS
10
9.7207704724409449
20
-4.2110472047244096
11
9.7207704724409449
21
-5.0048464173228346
0
LINE
8
BLACK
6
CONTINUOUS
10
9.7207704724409449
20
-5.0048464173228346
11
9.7206955511811017
21
-5.0052230708661414
0
LINE
8
BLACK
6
CONTINUOUS
10
9.7206955511811017
20
-5.0052230708661414
11
9.7201628740157471
21
-5.005755748031496
0
LINE
8
BLACK
6
CONTINUOUS
10
9.7201628740157471
20
-5.005755748031496
11
9.7197862204724412
21
-5.0058306692913384
0
LINE
8
BLACK
6
CONTINUOUS
10
9.7197862204724412
20
-5.0058306692913384
11
8.8316277952755904
21
-5.0058306692913384
0
LINE
8
BLACK
6
CONTINUOUS
10
8.8316277952755904
20
-5.0058306692913384
11
8.1304729133858267
21
-5.1928053149606299
0
LINE
8
BLACK
6
CONTINUOUS
10
8.1304729133858267
20
-5.1928053149606299
11
8.1303183464566935
21
-5.192815236220472
0
LINE
8
BLACK
6
CONTINUOUS
10
8.1303183464566935
20
-5.192815236220472
11
8.1301647244094486
21
-5.1928370472440948
0
LINE
8
BLACK
6
CONTINUOUS
10
8.1301647244094486
20
-5.1928370472440948
11
7.336914094488189
21
-5.1487675590551181
0
LINE
8
BLACK
6
CONTINUOUS
10
7.336914094488189
20
-5.1487675590551181
11
7.3365422047244095
21
-5.1486718503937006
0
LINE
8
BLACK
6
CONTINUOUS
10
7.3365422047244095
20
-5.1486718503937006
11
7.3364701968503931
21
-5.1485913779527559
0
LINE
8
BLACK
6
CONTINUOUS
10
7.3364701968503931
20
-5.1485913779527559
11
7.3363660629921261
21
-5.1485629921259841
0
LINE
8
BLACK
6
CONTINUOUS
10
7.3363660629921261
20
-5.1485629921259841
11
7.3361141338582678
21
-5.1482731496062994
0
LINE
8
BLACK
6
CONTINUOUS
10
7.3361141338582678
20
-5.1482731496062994
11
6.9670140551181099
21
-4.5023480314960631
0
LINE
8
BLACK
6
CONTINUOUS
10
6.9670140551181099
20
-4.5023480314960631
11
6.9669861023622044
21
-4.5022644488188979
0
LINE
8
BLACK
6
CONTINUOUS
10
6.9669861023622044
20
-4.5022644488188979
11
6.9669603149606294
21
-4.5022388188976379
0
LINE
8
BLACK
6
CONTINUOUS
10
6.9669603149606294
20
-4.5022388188976379
11
6.9669341338582678
21
-4.5021091732283463
0
LINE
8
BLACK
6
CONTINUOUS
10
6.9669341338582678
20
-4.5021091732283463
11
6.9668922440944883
21
-4.5019838582677165
0
LINE
8
BLACK
6
CONTINUOUS
10
6.9668922440944883
20
-4.5019838582677165
11
6.9669017716535429
21
-4.5019487795275586
0
LINE
8
BLACK
6
CONTINUOUS
10
6.9669017716535429
20
-4.5019487795275586
11
6.9668843700787404
21
-4.501862362204724
0
LINE
8
BLACK
6
CONTINUOUS
10
6.9668843700787404
20
-4.501862362204724
11
6.9604358267716533
21
-2.1062270078740157
0
LINE
8
BLACK
6
CONTINUOUS
10
6.9604358267716533
20
-2.1062270078740157
11
6.9605097244094489
21
-2.1058501574803148
0
LINE
8
BLACK
6
CONTINUOUS
10
6.9605097244094489
20
-2.1058501574803148
11
6.9605107480314956
21
-2.1058490944881889
0
LINE
8
BLACK
6
CONTINUOUS
10
6.9605107480314956
20
-2.1058490944881889
11
6.9605107480314956
21
-2.105847716535433
0
LINE
8
BLACK
6
CONTINUOUS
10
6.9605107480314956
20
-2.105847716535433
11
6.9607753543307087
21
-2.1055831102362204
0
LINE
8
BLACK
6
CONTINUOUS
10
6.9607753543307087
20
-2.1055831102362204
11
6.9610409842519685
21
-2.1053160629921259
0
LINE
8
BLACK
6
CONTINUOUS
10
6.9610409842519685
20
-2.1053160629921259
11
6.9610424015748027
21
-2.1053160236220472
0
LINE
8
BLACK
6
CONTINUOUS
10
6.9610424015748027
20
-2.1053160236220472
11
6.9610434251968503
21
-2.1053150393700788
0
LINE
8
BLACK
6
CONTINUOUS
10
6.9610434251968503
20
-2.1053150393700788
11
6.961420078740157
21
-2.105240118110236
0
LINE
8
BLACK
6
CONTINUOUS
10
6.961420078740157
20
-2.105240118110236
11
8.5500027559055116
21
-2.105240118110236
0
LINE
8
BLACK
6
CONTINUOUS
10
8.5500027559055116
20
-2.105240118110236
11
8.5500027559055116
21
-2.0127204330708661
0
LINE
8
BLACK
6
CONTINUOUS
10
8.5500027559055116
20
-2.0127204330708661
11
8.5500776771653548
21
-2.0123437795275589
0
LINE
8
BLACK
6
CONTINUOUS
10
8.5500776771653548
20
-2.0123437795275589
11
8.5506103543307077
21
-2.0118111023622047
0
LINE
8
BLACK
6
CONTINUOUS
10
8.5506103543307077
20
-2.0118111023622047
11
8.5509870078740153
21
-2.011736181102362
0
LINE
8
BLACK
6
CONTINUOUS
10
8.5509870078740153
20
-2.011736181102362
11
9.3447862204724412
21
-2.011736181102362
0
LINE
8
BLACK
6
CONTINUOUS
10
9.3447862204724412
20
-2.011736181102362
11
9.3447862204724412
21
-1.9192164960629921
0
LINE
8
BLACK
6
CONTINUOUS
10
9.3447862204724412
20
-1.9192164960629921
11
9.3448611417322827
21
-1.9188398425196851
0
LINE
8
BLACK
6
CONTINUOUS
10
9.3448611417322827
20
-1.9188398425196851
11
9.3453938188976373
21
-1.9183071653543307
0
LINE
8
BLACK
6
CONTINUOUS
10
9.3453938188976373
20
-1.9183071653543307
11
9.3457704724409449
21
-1.9182322440944881
0
LINE
8
BLACK
6
CONTINUOUS
10
9.3457704724409449
20
-1.9182322440944881
11
10.1405539370078746
21
-1.9182322440944881
0
LINE
8
BLACK
6
CONTINUOUS
10
10.1405539370078746
20
-1.9182322440944881
11
10.1409305905511804
21
-1.9183071653543307
0
LINE
8
BLACK
6
CONTINUOUS
10
9.3467547244094487
20
-1.920200748031496
11
9.3467547244094487
21
-2.0127204330708661
0
LINE
8
BLACK
6
CONTINUOUS
10
9.3467547244094487
20
-2.0127204330708661
11
9.3466798031496054
21
-2.0130970866141733
0
LINE
8
BLACK
6
CONTINUOUS
10
9.3466798031496054
20
-2.0130970866141733
11
9.3461471259842526
21
-2.0136297637795275
0
LINE
8
BLACK
6
CONTINUOUS
10
9.3461471259842526
20
-2.0136297637795275
11
9.3457704724409449
21
-2.0137046850393698
0
LINE
8
BLACK
6
CONTINUOUS
10
9.3457704724409449
20
-2.0137046850393698
11
8.551971259842519
21
-2.0137046850393698
0
LINE
8
BLACK
6
CONTINUOUS
10
8.551971259842519
20
-2.0137046850393698
11
8.551971259842519
21
-2.1062243700787402
0
LINE
8
BLACK
6
CONTINUOUS
10
8.551971259842519
20
-2.1062243700787402
11
8.5518963385826776
21
-2.1066010236220474
0
LINE
8
BLACK
6
CONTINUOUS
10
8.5518963385826776
20
-2.1066010236220474
11
8.551363661417323
21
-2.1071337007874016
0
LINE
8
BLACK
6
CONTINUOUS
10
8.551363661417323
20
-2.1071337007874016
11
8.5509870078740153
21
-2.1072086220472439
0
LINE
8
BLACK
6
CONTINUOUS
10
8.5509870078740153
20
-2.1072086220472439
11
6.9624069685039371
21
-2.1072086220472439
0
LINE
8
BLACK
6
CONTINUOUS
10
6.9624069685039371
20
-2.1072086220472439
11
6.9688521653543303
21
-4.5015971259842518
0
LINE
8
BLACK
6
CONTINUOUS
10
6.9688521653543303
20
-4.5015971259842518
11
7.3375576771653543
21
-5.1468317322834647
0
LINE
8
BLACK
6
CONTINUOUS
10
7.3375576771653543
20
-5.1468317322834647
11
8.1301171653543314
21
-5.1908628346456691
0
LINE
8
BLACK
6
CONTINUOUS
10
8.1301171653543314
20
-5.1908628346456691
11
8.8312451968503929
21
-5.0038953937007875
0
LINE
8
BLACK
6
CONTINUOUS
10
8.8312451968503929
20
-5.0038953937007875
11
8.8313731102362194
21
-5.0038871653543309
0
LINE
8
BLACK
6
CONTINUOUS
10
8.8313731102362194
20
-5.0038871653543309
11
8.8314988188976375
21
-5.0038621653543309
0
LINE
8
BLACK
6
CONTINUOUS
10
8.8314988188976375
20
-5.0038621653543309
11
9.7188019685039375
21
-5.0038621653543309
0
LINE
8
BLACK
6
CONTINUOUS
10
9.7188019685039375
20
-5.0038621653543309
11
9.7188019685039375
21
-4.210062952755905
0
LINE
8
BLACK
6
CONTINUOUS
10
9.7188019685039375
20
-4.210062952755905
11
9.7188768897637789
21
-4.2096862992125983
0
LINE
8
BLACK
6
CONTINUOUS
10
9.7188768897637789
20
-4.2096862992125983
11
9.7194095669291336
21
-4.2091536220472436
0
LINE
8
BLACK
6
CONTINUOUS
10
9.7194095669291336
20
-4.2091536220472436
11
9.7197862204724412
21
-4.2090787007874013
0
LINE
8
BLACK
6
CONTINUOUS
10
9.7197862204724412
20
-4.2090787007874013
11
10.0470500000000005
21
-4.2090787007874013
0
LINE
8
BLACK
6
CONTINUOUS
10
10.0470500000000005
20
-4.2090787007874013
11
10.0474266535433063
21
-4.2091536220472436
0
LINE
8
BLACK
6
CONTINUOUS
10
10.0474266535433063
20
-4.2091536220472436
11
10.047959330708661
21
-4.2096862992125983
0
LINE
8
BLACK
6
CONTINUOUS
10
10.047959330708661
20
-4.2096862992125983
11
10.0480342519685042
21
-4.210062952755905
0
LINE
8
BLACK
6
CONTINUOUS
10
10.0480342519685042
20
-4.210062952755905
11
10.0480342519685042
21
-4.3493346062992124
0
LINE
8
BLACK
6
CONTINUOUS
10
10.0480342519685042
20
-4.3493346062992124
11
10.7950814960629913
21
-4.3493346062992124
0
LINE
8
BLACK
6
CONTINUOUS
10
10.7950814960629913
20
-4.3493346062992124
11
10.7954581496062989
21
-4.3494095275590547
0
LINE
8
BLACK
6
CONTINUOUS
10
10.7954581496062989
20
-4.3494095275590547
11
10.7959908267716536
21
-4.3499422047244094
0
LINE
8
BLACK
6
CONTINUOUS
10
10.7959908267716536
20
-4.3499422047244094
11
10.796065748031495
21
-4.3503188582677161
0
LINE
8
BLACK
6
CONTINUOUS
10
10.796065748031495
20
-4.3503188582677161
11
10.796065748031495
21
-4.4428385433070865
0
LINE
8
BLACK
6
CONTINUOUS
10
10.796065748031495
20
-4.4428385433070865
11
12.4304161417322838
21
-4.4428385433070865
0
LINE
8
BLACK
6
CONTINUOUS
10
12.4304161417322838
20
-4.4428385433070865
11
12.4304161417322838
21
-2.200712559055118
0
LINE
8
BLACK
6
CONTINUOUS
10
12.4304161417322838
20
-2.200712559055118
11
10.8885854330708653
21
-2.200712559055118
0
LINE
8
BLACK
6
CONTINUOUS
10
10.8885854330708653
20
-2.200712559055118
11
10.8882087795275595
21
-2.2006376377952757
0
LINE
8
BLACK
6
CONTINUOUS
10
10.8882087795275595
20
-2.2006376377952757
11
10.8876761023622048
21
-2.200104960629921
0
LINE
8
BLACK
6
CONTINUOUS
10
10.8876761023622048
20
-2.200104960629921
11
10.8876011811023616
21
-2.1997283070866143
0
LINE
8
BLACK
6
CONTINUOUS
10
10.8876011811023616
20
-2.1997283070866143
11
10.8876011811023616
21
-2.1072086220472439
0
LINE
8
BLACK
6
CONTINUOUS
10
10.8876011811023616
20
-2.1072086220472439
11
10.1405539370078746
21
-2.1072086220472439
0
LINE
8
BLACK
6
CONTINUOUS
10
10.1405539370078746
20
-2.1072086220472439
11
10.1401772834645669
21
-2.1071337007874016
0
LINE
8
BLACK
6
CONTINUOUS
10
10.1401772834645669
20
-2.1071337007874016
11
10.1396446062992123
21
-2.1066010236220474
0
LINE
8
BLACK
6
CONTINUOUS
10
10.1396446062992123
20
-2.1066010236220474
11
10.1395696850393691
21
-2.1062243700787402
0
LINE
8
BLACK
6
CONTINUOUS
10
10.1395696850393691
20
-2.1062243700787402
11
10.1395696850393691
21
-1.920200748031496
0
LINE
8
BLACK
6
CONTINUOUS
10
10.1395696850393691
20
-1.920200748031496
11
9.3467547244094487
21
-1.920200748031496
  0
ENDSEC
  0
EOF
